Karte

Songtexte / Tabs

 (280 /  299)
alle /  nur Interpret Rio /  nur Interpret Scherben /  nur andere Interpreten / 

nur mit Noten /  nur mit Videos

Wir müssen hier raus

von Ton Steine Scherben, 1972
M/T: Rio Reiser und R.P.S. Lanrue

Auf diesen Tonträgern zu hören

Keine Macht für Niemand (Album)
Live II (Album)

Videos (auf YouTube)

keine Videos gefunden

Songtext - die RioLyrics

Tabulatur Leadgitarre: 

E||--------------------|------------------------|-----------------|
B||--15b---------------|--15r-15--12----12------|--15b-------15b--|
G||--------------------|------------------------|-----------------|
D||--------------------|------------------------|-----------------|
A||--------------------|------------------------|-----------------|
E||--------------------|------------------------|-----------------|
                                                           
------------------------------|----------------------------|
--15r-15--12------------------|----------------------------|
--------------14--12~---------|----------12------12~-------|
------------------------14----|--12--14------14------------|
------------------------------|----------------------------|
------------------------------|----------------------------|
                                                          
------------------------------|--------------------------|
------------------12~---------|------------12r---12r-12--|
----------12--14--------14----|--12----------------------|
--12--14----------------------|--------------------------|
------------------------------|--------------------------|
------------------------------|--------------------------|
                                                                
--12--------12------------------|------------------------------|
------15b-------15r-15--12------|--12------12~-----------------|
----------------------------14--|------14------14r---12--12----|
--------------------------------|------------------------------|
--------------------------------|------------------------------|
--------------------------------|------------------------------|
                                                                
--------------------------------|--------------------12r-12----|
--------------------------------|------------------------------|
--------------------------------|----------12r-12b-------------|
--12--------------12--12----12--|--12--14----------------------|
------14h-12h-14----------------|------------------------------|
--------------------------------|------------------------------|
                                                                     
--12------------------------12-|------12--------12--------12------|
--------15r---12--12--12h15----|--12------12h15-----12h15-----15b-|
-------------------------------|----------------------------------|
-------------------------------|----------------------------------|
-------------------------------|----------------------------------|
-------------------------------|----------------------------------|
                                                               
--12--------------15--12------12--|------------------------------|
------15r-15--12----------15b-----|----------12--12----12--12----|
----------------------------------|--12--14----------------------|
----------------------------------|------------------------------|
----------------------------------|------------------------------|
----------------------------------|------------------------------|
                                                                          
--------------------------|--------------------|----------------------|
------12r-----------------|--------------------|----------------------|
--14----------12--12------|--------------------|-------------5--5--5--|
----------------------14/-|--5--------5--------|----5--5--5--5--5--5--|
--------------------------|--5--------5--------|----5--5--5--3--3--3--|
--------------------------|--3--------3--------|----3--3--3-----------|
                                                                 
--------------------|------------------------|------------------||
--------------------|------------------------|------------------||
--------------------|---------------5--5--5--|------------------||
--5--------5--------|------5--5--5--5--5--5--|------------------||
--5--------5--------|------5--5--5--3--3--3--|------------------||
--3--------3--------|------3--3--3-----------|------------------||

     G                                    D
Im Bett ist der Mensch nicht gern alleine
          Am                                  Em         D
und in meinem Bett ist grad noch Platz für dich.
G                                  D
Doch mein Alter ist fast jeden Tag zu Hause
Am                                 Em            D
und ich glaub, er hat was gegen dich.
      G                      D
Für mich ist die Welt nicht mehr in Ordnung,
Am                                Em                         D
nicht früh um Sieben und auch nicht nach der Tagesschau.
G                          D
Für mich heißt das Wort zum Sonntag "Scheiße"
Am                                    Em            D
und das Wort zum Montag "Mach mal Blau". 

Refrain:
Hm            Em              Hm   Em          Hm
           Wir müssen hier raus! Das ist die Hölle!
       Em        Hm               D
Wir leben im Zuchthaus!
G                    D  Am         Em           D
Wir sind geboren,     um frei     zu sein,
G                        D             Am                        Em  D
wir sind zwei von Millionen, wir sind nicht allein.
Hm            Em            Hm             Em            A               3x D7
Und     wir werden es schaffen, wir werden es schaffen. 

Mein Alter sagt, die Welt wird sich nicht ändern,
dabei weiß er ganz genau, was läuft.
Doch er glaubt, er vergißt die ganze Scheiße,
wenn er abends in der Kneipe hängt und säuft.
Er sagt, der schönste Platz ist immer an der Theke,
da hat er recht, zu Haus ist kaum noch Platz für drei.
Darum bin ich auch den ganzen Tag auf Arbeit,
man kann sagen, ich bin so frei. 

Refrain... 

Wir werden es schaffen.
Und was kann uns hindern? Kein Geld, keine Waffen,
wenn wir es woll'n. Wir werden es schaffen.
Wir sind geboren, um frei zu sein.
Wir sind zwei von Millionen, wir sind nicht allein.
Wir sind geboren, um frei zu sein,
Wir sind 60 Millionen, wir sind nicht allein.
3x Wir sind geboren, um frei zu sein.
Frei!

Anmerkungen

"Wir sind 60 Millionen" = damit meint Rio die Einwohnerzahl von Deutschland
"Im Bett ist der Mensch nicht gern alleine" = Anspielung auf einen 40er-Jahre-Schlager, in dem es hieß "In der Nacht ist der Mensch nicht gern alleine"
Eine Zeile aus dem Song wird auch bei "Steig ein" zitiert.

Noten: Die Tabulatur wurde freundlicherweise bereitgestellt von André Silge, der eine eigene Tabulatur-Webseite hat.
Im MP3-Download-Bereich gibt es die Tabulatur auch als Midi-Datei zum runterladen, was das Üben stark erleichtern dürfte.

Coverversionen gibt es von (mehr Infos ...)

Britta, Daily Milk & Brutzky, Das Department, Fire-A-Band, FLuchtweg, Pearl Harbor, Slime, ZSK, Ken, WKA Wir können auch anders, Sido, Wunderbundt
Lesezeichen setzen:
Kommentare

Joe am 30.07.2009
Danke für diese Seite !

Das ist eins meiner Liebsten Songs. Jedes Mal ein volles Kribbeln ...
Danny am 02.02.2013
Ich würde noch erwähnen, dass die Band "Kapelle Vorwärts" in ihrer Interpretation des Lieds "Nein, Nein, Nein" Bezug auf dieses Lied nimmt.

Hier:
Wir sind geboren, um frei zu sein,
Wir sind zwei von Millionen (60 Millionen), wir sind nicht allein.

Dort:
Wir sind geboren, um frei zu sein,
Wir sind viele Millionen und wir sagen NEIN! ...
Adrian am 02.02.2014
Hallo kann mir irgendeiner sagen wo man den originalsong von Rio Reiser herbekommt wo er mit Sido singt?
Robert am 04.02.2014
@Adrian:

Den Originalsong von "Wir müssen hier raus" findest Du auf dem Album "Keine Macht für Niemand", allerdings ohne Sido (diese Version entstand deutlich später und ist auf der CD "Blutzbrüdaz - Die Mukke zum Film" zu finden).
pLatin am 11.03.2014
DANKE DANKE DANKE !!!
Kommentar schreiben



Kommentare werden von uns überprüft, bevor sie auf der Seite erscheinen.

Zeig uns bitte, dass Du keine Maschine bist

Gib bitte hier Deinen Namen rückwärts und ohne Leerzeichen ein: