Karte

Songtexte / Tabs

 (266 /  301)
alle /  nur Interpret Rio /  nur Interpret Scherben /  nur andere Interpreten / 

nur mit Noten /  nur mit Videos

Warum geht es mir so dreckig

von Ton Steine Scherben, 1971
T: Rio Reiser, M: R.P.S. Lanrue

Auf diesen Tonträgern zu hören

Warum geht es mir so dreckig (Album)
Rock in Deutschland Vol. 3 (Sampler)
Auswahl I (Klassiker & Raritäten) (Sampler)
Was bleibt (Singles Demos Raritäten) (Sampler)

Videos (auf YouTube)

keine Videos gefunden

Songtext - die RioLyrics

Refrain:
E |------------------------------------0-0-----------0---------------------|
B |-----1-------1---1---1---1--1---1-------3-1-3-1-3---1---1---1---1---1---|
G |-2-2---2-0-2---2---2---2--2---2---2-------------------2---2---2---2---2-|
D |------------------------------------------------------------------------|
A |------------------------------------------------------------------------|
E |------------------------------------------------------------------------|
E |-0-0-0-0---------------------------------|-0-0-0-0-0-0---------------------------------|
B |---------3-3-3-3-1-3-3-3-3-1-1-1-3-0-0-1-|-------------1-3-3-3-1-3-3---1-1-1-1-1-1-1---|
G |-----------------------------------------|---------------------------2---------------2-|
D |-----------------------------------------|---------------------------------------------|
A |-----------------------------------------|---------------------------------------------|
E |-----------------------------------------|---------------------------------------------|
E |-----------------------------0-0-0---0-|
B |-1-1-1---1-1-3-3-3-3-3-3-3-1-------3---|
G |-------2-------------------------------|
D |---------------------------------------|
A |---------------------------------------|
E |---------------------------------------|

Refrain:
Am                                         Dm        Em   F      Em      Am
Warum geht es mir so dreckig, was kann ich allein dagegen tun?
Am                                         Dm        Em   F      Em               F  G
Warum geht es mir so dreckig, was kann ich allein dagegen tun? 

C                              B
Sieben Uhr aufstehen, Kaffee trinken,
      F                                         G
zur Arbeit fahren, freundlich sein, den Chef grüßen,
        C                                       B
nicht sagen, was ich denke, nicht denken, was ich sage.
      F                                                    D
Ich möchte am liebsten tot sein und von allem nichts mehr sehen.
     G                                                     E
Ich möchte am liebsten tot sein und von allem nichts mehr sehen. 

Refrainx{2026} 

Fünf Uhr, Feierabend, zum Bus rennen,
n'Abend Alter, n'Abend Alte, Abendessen,
in die nächste Kneipe gehen, Bier trinken.
Ich möchte so besoffen sein, daß ich alles nicht mehr seh.
Ich möchte so besoffen sein, daß ich alles nicht mehr seh. 

Refrainx{2026} 

Soll ich morgen abhauen und gehen, wohin ich will?
Soll ich die Papiere holen und machen, was ich will?
Soll ich mir'n Schuß machen und von allem nichts mehr sehen?
Ich möchte endlich frei sein, aber wohin soll ich gehen? 

4x Warum geht es mir so dreckig?

Anmerkungen

"N'Abend" = Guten Abend
"Soll ich mir'n Schuß machen" = sich Drogen spritzen
Auf der gleichnamigen LP kommt direkt nach dem Song ohne Übergangung das Brecht/Eisler-Cover "Einheitsfrontlied".

Noten: Die Akkorde C/B/F/G sollten als Barrégriff gespielt werden.

Coverversionen gibt es von (mehr Infos ...)

John Banse, Tagtraum, Wunderbundt
Lesezeichen setzen:
Kommentare

Zitronenbaum am 26.08.2009
Eigentlich hat Lanrue den Text hier alleine geschrieben.
Ist ja nicht so, dass er keine Texte geschrieben hat.
Auch wenns vielleicht anders angemeldet wurde.
Ich glaube die ham das damals im Paket angemeldet.
Is auch nich so wichtig. Nur mal so am Rande.

Schönste Grüße!
Danny am 23.08.2011
Hallo,
dieses Lied gibt es auch auf YT: http://www.youtube.com/watch?v=kU1qBEEGAec
Liebe Grüße
Kommentar schreiben



Kommentare werden von uns überprüft, bevor sie auf der Seite erscheinen.

Zeig uns bitte, dass Du keine Maschine bist

Gib bitte hier Deinen Namen rückwärts und ohne Leerzeichen ein: