Karte

Songtexte / Tabs

 (287 /  299)
alle /  nur Interpret Rio /  nur Interpret Scherben /  nur andere Interpreten / 

nur mit Noten /  nur mit Videos

Wohin gehen wir

von Rio Reiser, 1993
T/M: Rio Reiser

Auf diesen Tonträgern zu hören

Über Alles
Balladen (Sampler)
Unter Geiern (Sampler)
Junimond - Die Balladen (Sampler)
Alles und noch viel mehr - Das Beste (Sampler)

Videos (auf YouTube)

keine Videos gefunden

Songtext - die RioLyrics

Wo-       hin  gehn  wir, wo-       hin  gehn wir   
e||7-------5---3---|2---7-------5---3---0-2-|
H||----------------|------------------------|
G||----------------|------------------------|
D||----------------|------------------------|
A||----------------|------------------------|
E||----------------|------------------------|

    Wer- den  wir  uns        wie-       der- sehn hier
e||7---5---3---2-------|2-------0---0-------|
H||--------------------|--------------------|
G||--------------------|----------------2---|
D||--------------------|--------------------|
A||--------------------|--------------------|
E||--------------------|--------------------|

    Du   bist wie- der        da,       wo   du   warst,
e||0-------0---2-------|3-------2---0-------|
H||----3---------------|--------------------|
G||--------------------|----------------2---|
D||--------------------|--------------------|
A||--------------------|--------------------|
E||--------------------|--------------------|

    a-   ber  ich       bin        wie- der  al-  lein  hm   hm   hm
e||--------------------|--------0-------2---|3---2---0---|
H||3---0---3-------3---|----3-------3-------|------------|
G||--------------------|--------------------|------------|
D||--------------------|--------------------|------------|
A||--------------------|--------------------|------------|
E||--------------------|--------------------|------------|

In der Wiederholung:

    a-   ber  ich       bin        wie- der  al-  lein
e||--------------------|--------0-----------|
H||3---0---3-------3---|----3-------3---3---|
G||--------------------|--------------------|
D||--------------------|--------------------|
A||--------------------|--------------------|
E||--------------------|--------------------|

     Ein  an-  dres Jahr, ein   an-  drer Wein, 
     und  nur, wer liebt ist  nicht al-   lein,
     und  wer nicht liebt der  wird zu     Stein
                                                           2x
e|| --------------------|0--------2----------||
H||*3---3---0---3---3---|----3---------------*|
G|| --------------------|--------------------||
D|| --------------------|--------------------||
A||*--------------------|--------------------*|
E|| --------------------|--------------------||
    
   Und   es  wird nie- mals  an-  de-   rs   sein
e||----------------0---|----0---------------|
H||3---3---0---3-------|3-------3---3-------|
G||--------------------|--------------------|
D||--------------------|--------------------|
A||--------------------|--------------------|
E||--------------------|--------------------|
 
Riff:

e||----3-2---0---0----0----|
H||------------3----3---3--|
G||-----------------------2|
D||0-----------------------|
A||------------------------|
E||------------------------|


D                        e                         D                       a         e 
Wohin gehn wir, wohin gehn wir, werden wir uns wiedersehen?
a                       e                                 G                       D
Du bist wieder da, wo du warst, aber ich bin wieder allein.
Du bist wieder da, wo du warst, aber ich bin wieder allein.

Andre Wege, andere Straßen, jeder wird woanders schlafen.
Ich bin wieder da, wo ich war, aber du bist wieder allein.
Du bist wieder da, wo ich war, aber ich bin wieder allein.

Nur die Sterne, nur die Sterne, drehen sich weiter in der Ferne.
Alles wird so sein, wie es war, aber nichts wird wieder so sein.
Nichts wird wieder sein, wie es war, solange die Sonne scheint.

e                                        D       G                                          D
Ein langes Jahr, ein langer Wein, und nur wer liebt, ist nicht allein.
e                                           D                G                               D    
Wer nicht liebt, der wird zu Stein und es wird niemals anders sein.
D                          e                          h7                     a          e          G
Wohin gehen wir, wohin gehen wir, werden wir uns wiedersehen?

Reinhören und Kaufen

Anmerkungen

Noten: Die Akkorde/Tabs wurden dankenswerterweise von Jonathan rausgehört. Für das h7 kann zur Not auch ein D gegriffen werden. Die Silben über der Tabulatur stimmen nicht 100%ig mit den Noten überein, sondern sind eher zur Orientierung. Der Rhythmus wird wie immer am besten mit dem Original-Song rausgehört. Das Lied kann auch mit dem Klavier gespielt werden, wenn die Tabulatur-Noten mit der rechten Hand gespielt werden und mit der linken Hand die Akkorde.

Coverversionen gibt es von (mehr Infos ...)

Udo Lindenberg
Lesezeichen setzen:
Kommentare

noch keine Kommentare
Kommentar schreiben



Kommentare werden von uns überprüft, bevor sie auf der Seite erscheinen.

Zeig uns bitte, dass Du keine Maschine bist

Gib bitte hier Deinen Namen rückwärts und ohne Leerzeichen ein: